Paola Requena plays Sonata Heróica (Mauro Giuliani)

Paola Requena plays Mauro Giuliani’s “Sonata Heróica”, op. 150.

Mauro Giuseppe Sergio Pantaleo Giuliani (27 July 1781 – 8 May 1829) was an Italian guitarist, cellist, singer, and composer. He was a leading guitar virtuoso of the early 19th century.

“Giuliani’s expression and tone in guitar playing were astonishing, and a competent critic said of him: “He vocalized his adagios to a degree impossible to be imagined by those who never heard him; his melody in slow movements was no longer like the short, unavoidable staccato of the piano, requiring profusion of harmony to cover the deficient sustension of notes, but it was invested with a character, not only sustained and penetrating, but of so earnest[2] and pathetic[3] a description as to make it appear the natural characteristic of the instrument. In a word, he made the instrument sing.” –Philip James Bone, The guitar and mandolin, 1914 (page 127)

Paola Requena

Paola Requena
Paola Requena

Paola Requena was born in Cartagena, Spain. She completed his advanced studies in the “Ecole Normale of Music” in Paris with Alberto Ponce and at the “Oscar Esplá” Conservatory in Alicante under the tutelage of Ignacio Rodes, winning the Extraordinaty End-of-Course prize in the year 2007.At the same time she took part in various international courses under the supervision of prestigious guitarists such José Tomás, David Russell, Roberto Aussel, Jose Miguel Moreno, Ricardo Gallén etc.

She has been awarded many prizes at major nacional and internacional guitar competitions including the Internacional competition Francisco Tárrega in Benicassim, Printemps de la guitare in Charleroi (Bélgica), Certamen Internacional Andrés Segovia in la Herradura (Spain), Internacional competition “Comarca del Condado” in Jaén (Spain), Competiton“José Tomás” in Almería, Juventudes Musicales of Spain, Sociedad de Conciertos of Alicante, “Cincilia” competiton in Albacete etc.

In January 2010, she was invited by the Spanish Embassy in Austria to perform two recitals in Vienna, one in the Instituto Cervantes and another in the ‘Hofburg’ Imperial Palace where she played for the President of Austria Heinz Fischer and for the ambassadors of Spain for the Spanish EU Presidency Inauguration.

She has performed as a soloist with the Symphonic Orchestra of Valencia, Orchestre de Chambre de Wallonie (Belgium), Symphonic Orchestra of Alicante, Collegium Instrumentale etc.

She has been selected by the Fundación A.I.E. (a society of Artists and Performers from Spain) to participate as a soloist in the ‘Clásicos en Ruta’ (Classics on the road) series, performing in cities such as A Coruña, Cádiz, Pamplona, Mérida…

She has done recordings with Eurodeltamusic, the production company from Madrid, that have been broadcast by TVE and Canal Sur.

Recently she received prize in the “Injuve prizes for creative youth 2010”, awarded by the Spanish National Youth Institute. Consequently, she has performed at the Music Festival in Segovia, organised by the Fundación Juan de Borbón, and at the Círculo de Bellas Artes in Madrid.

Tabs


Sonata Eróica (Sonata Heroica) - Mauro Giuliani - Opus 150

Tab by Átila Gaulandde Magalhães Bortoluzzi

H = natural harmonic

Allegro maestoso

E||----------|-0---0-2-0---0-2-4-|-5------7------|-0--12---|
B||------2---|-0---------4-------|-----2------4--|-0--9----|
G||*-2---2---|-------------------|-----2------4--|-1--9----|
D||*-2---2---|-2-----------------|------------4--|-2-------|
A||--4---0---|-------------------|---------------|---------|
E||--5-------|-4-----------------|-----2---------|----0----|

E|-10-----------10-14-|-4--5--5-4-2-------|-------------|------|
B|-7---------10-------|-3--2--------5-3-2-|-0--0--0--0--|-0----|
G|-7------------------|-4--2--------------|-2--2--2--2--|-2----|
D|-0------11----------|-3--4--------------|----0--2--3--|-4----|
A|--------------------|-------------------|-------------|------|
E|-----10-------------|-------------------|-------------|------|

E|-2-------|-0-2-0---0-5------2--|-0--12-10-9------------------------------|
B|-0---0---|-------4----------1--|-2----------12-10-9----------------------|
G|-2---1---|-2----------------2--|-2------------------11-9-----------------|
D|-1---0---|--------------1------|-------------------------12-11-9---------|
A|---------|-4-------------------|---------------------------------12-11-9-|
E|---------|---------------------|-0---------------------------------------|

E|--------------0----9-12-17-|-----9------4--|-5--------|
B|------------2---10---------|-----10-----3--|-2--------|
G|----------2----------------|-----9------4--|-2--------|
D|--------2------------------|------------2--|----------|
A|----0-4--------------------|---------------|-0--------|
E|-0-------------------------|-0-------0-----|-----0-0--|

E|----------0-0-|-0--2-0---0-5-0------|---------------0-0-|
B|----------3---|-2------4------------|---------------3---|
G|----------4---|-2-------------------|---------------4---|
D|-------2------|---------------------|-------------2-----|
A|-0--4---------|-0-------------------|-0---0-4-0-4-------|
E|----------0---|-----------------0-0-|---0-----------4---|

E|-0-2-0---0-5-0-----|---------------|-5---0-------2-0-----|
B|-2-----4-----------|-----------5-5-|-----------------3-2-|
G|-2-----------------|--------2------|-2---0---------------|
D|-------------------|----2-2----2---|---------------------|
A|-0-----------------|-0------0------|-0-0-0-0-0-0-----0-0-|
E|---------------0-0-|----0----------|---------------------|

H H H H H H H H H
E|-0---------------|---------|---------12--0-0-|-0-4---5-4-7-5-0-----|
B|---3---2-2-0-3---|---------|-------------3---|-3---7---------------|
G|---------------1-|-2-------|-------------0---|-4-------------------|
D|-4---2---0---2---|---------|-7-----7---------|---------------------|
A|-0---0---0---0---|-4---7-7-|---7-9-----------|-----------------7-7-|
E|-----------------|-5-------|-----------------|-4-------------------|

H H H H H H H
E|-------------12-0-0-|-0-10-9-7--------0-------|-----------12-12-|
B|----------------3---|-2--------10-9-7---------|-----------------|
G|----------------4---|-2-----------------------|-----------9--9--|
D|-7---7---7----------|-------------------------|--------7--------|
A|---7---9---9--------|-0-----------------------|-12-7-7----------|
E|----------------0---|-------------------12-12-|-----------------|

E|-17---12-------14-12-10-9-|-12-10---9-9-7-10---|-5----------12-11-14-12-10-9-|
B|--------------------------|------------------9-|----5-5-5-5------------------|
G|-14---12------------------|-11----9---7---9----|----6-6-6-6------------------|
D|--------------------------|--------------------|----7-7-7-7------------------|
A|----0-0--0-0-0-------0--0-|-0-----0---0---0----|-----------------------------|
E|--------------------------|--------------------|-----------------------------|

E|-6-7-7-7-7-10-9-12-10-9-7--|-4-5-5-5-5-------------|---------------0-------|
B|---9-9-9-9-----------------|---5-5-5-5-5---7-5-----|---0-0-0-0-3-2---3-2-0-|
G|---7-7-7-7-----------------|---6-6-6-6---8-----7-6-|-3-1-1-1-1-------------|
D|---7-7-7-7-----------------|---7-7-7-7-------------|---0-0-0-0-------------|
A|---------------------------|-----------------------|---0-0-0-0-------------|
E|---------------------------|-----------------------|-----------------------|

E|---------------2-------|-----------5-4-7-5-4-5-|-3-4-4-4-4-----4-5-7-|
B|-----------5-4---5-3-2-|---0-0-0-0-------------|---5-5-5-5-5-7-------|
G|-1-2-2-2-2-------------|-3-2-2-2-2-------------|---4-4-4-4-----------|
D|---2-2-2-2-------------|---1-1-1-1-------------|---------------------|
A|---4-4-4-4-------------|-----------------------|---------------------|
E|---5-5-5-5-------------|---2-2-2-2-------------|---0-0-0-0-----------|

E|-9-------------0-|---------------------------|----2-------2-------0-------0--|
B|---7-7-7---8-7---|-4----0--0---0---0---0---0-|--1---1---1---1---1---1---1---1|
G|---6-6-6---------|-4-------------------------|2-------2-------3-------3------|
D|-----------------|-----------1---2---4---5---|-------------------------------|
A|---0-0-0---------|-2--2--4-------------------|-------------------------------|
E|---------6-------|---------------------------|-------------------------------|

E|-----------------------------|-----2-------2-------0-------0---|
B|---4---0---0---0---0---0---0-|---1---1---1---1---1---1---1---1-|
G|---4-------------------------|-2-------2-------3-------3-------|
D|-------------1---2---4---5---|---------------------------------|
A|-2---2---4-------------------|---------------------------------|
E|-----------------------------|---------------------------------|

E|-------7-------7-------7-------7-|-----7-------|--------------|
B|-----7-------8-------7-------8---|-7---7---0-0-|-0--0-0-0--0--|
G|---8-------9-------8-------9-----|-8---8-------|--------------|
D|-9-------9-------9-------9-------|-9---9-------|--------------|
A|---------------------------------|-----9-------|--------------|
E|---------------------------------|-----7-------|--------------|

E|----------------0-1-3-5---|---------------------0-1-2-|
B|-0--1-0---0-1-3---------0-|-----1-1-1-----0-1-3-------|
G|-0------2-----------------|-----2-2-2---2-------------|
D|-3------------------------|-----2-2-2-----------------|
A|--------------------------|-0---------0---------------|
E|-3------------------------|---------------------------|

E|-5-3-0-------1-----------|----0---2-0---0-2-|-4-0-------------|
B|-------1-0-----3---1---0-|-1--2-------4-----|-----0---0-------|
G|-----------2-------1---0-|-0--0-------------|-------1---2-----|
D|-------------------2---0-|-2----------------|-------------4-1-|
A|-------------------------|-3--1-------------|-2---------------|
E|-0-------1-------3---3---|------------------|-----------------|

E|-----------------|-4-------5---6---|-7-----------8---|-9---12-------11-9-|
B|-----------------|-----------------|-----------------|-------------------|
G|-----------------|-1-------2---3---|-4-----------5---|-6---9--------8--6-|
D|-2---------------|-2-------4---5---|-6-----------6---|-7---11-------9--7-|
A|-----------------|-----------------|-----------------|-------------------|
E|-0-0-0-0-0-0-0-0-|-0-0-0-0-0-0-0-0-|-0-0-0-0-0-0-0-0-|-0-0-0--0-0-0-0--0-|

E|-6-------7-------|---------------0-2-------|-----------0-2-4-4-4-4-|
B|-----------0-0-0-|-0-2-0---0-2-4-----0-0-0-|-0---0-2-4-------------|
G|-3-------4-------|-2-----3-----------------|-1-3-------------------|
D|-5-------6-------|-1-----------------------|-2---------------------|
A|-----------------|-------------------------|-----------------------|
E|-0-0-0-0-0-------|-2-----------------------|-0---------------------|

E|-4-2-4-2-----4-2-4-2-----|------------------------|
B|---------4-4---------2-2-|-0--------0---0---0---0-|
G|---------4-4---------3-3-|------3-----------------|
D|-------------------------|------------------------|
A|-------------------------|-2--1---2---3---4---5---|
E|---------2-2---------2-2-|------------------------|

E|---------------------------------|-4-------5---6---|-7-----------8---|
B|---0---0---0---0---0---0---0---0-|-----------------|-----------------|
G|-----------------0---1---2---3---|-1-------2---3---|-4-----------5---|
D|-1---2---3---4---2---3---4---5---|-2-------4---5---|-6-----------6---|
A|-2---4---5---6-------------------|-----------------|-----------------|
E|---------------------------------|-0-0-0-0-0-0-0-0-|-0-0-0-0-0-0-0-0-|

E|-9---12-------11-9-|-6-------7-------|-------------2-5-------|
B|-------------------|-----------0-0-0-|-0-2-0---0-4-----0-0-0-|
G|-6---9--------8--6-|-3-------4-------|-2-----3---------------|
D|-7---11-------9--7-|-5-------6-------|-1---------------------|
A|-------------------|-----------------|-2---------------------|
E|-0-0-0--0-0-0-0--0-|-0-0-0-0-0-------|-----------------------|

E|-----------0-4-7-0-0-0-|-------2-4-5-2---0-----|-0---------------------------|
B|-0-2-0---0-------------|-2-4-5---------------4-|---------------0-------------|
G|-1-----3---------1-2-4-|-2---------------1---2-|-1---1---2---3-4---1---2---3-|
D|-2---------------------|-----------------------|---2---4---5---6-2---4---5---|
A|-----------------------|-0-------------2---2---|-----------------------------|
E|-0---------------0-2-4-|-----------------------|-0-------------0-------------|

E|-------------------------4-0-|---5-4-2---------5-4-2-------|
B|-0-------------0---0-2-0-----|-4-------5-4-2-0-------5-4-2-|
G|-4---1---2---3-4-3-----------|---------------2-------------|
D|-6-2---4---5---6-------------|-----------------------------|
A|-----------------------------|-----------------------------|
E|-0-------------0-------------|---------------2-------------|

E|---5-4-2-----------------------|-----------------------------|
B|-0-------5-3-2---0---0---0---0-|---------------0-------------|
G|-2-------------3---2-----------|-----1---2---3-4---1---2---3-|
D|-----------------------4---1---|-2-2---4---5---6-2---4---5---|
A|-------------------------------|-----------------------------|
E|-2-----------------------------|-0-------------0-------------|

E|-------------------------4-0-|---5-4-2---------5-4-2-------|
B|---------------0---0-2-0-----|-4-------5-4-2-0-------5-4-2-|
G|-4---1---2---3-4-3-----------|---------------2-------------|
D|-6-2---4---5---6-------------|-----------------------------|
A|-----------------------------|-----------------------------|
E|-0-------------0-------------|-2-------------2-------------|

E|---5-4-2-----------------------|-------0-4-2-0---0---------------|
B|-0-------5-3-2---0---0---0---0-|-----0---------4---4-2-0-2-0-----|
G|-2-------------3---2-----------|---1-------------------------2-1-|
D|-----------------------4---1---|---------------------------------|
A|-------------------------------|---------------------------------|
E|-2-----------------------------|-0-------------------------------|

E|------5-4-2---2---------------|-----7-5-4---4---------------|
B|------------5---5-4-2-4-2-----|-----------7---7-5-4-5-4-----|
G|-2------------------------4-2-|-4-----------------------6-4-|
D|------------------------------|-----------------------------|
A|------------------------------|-----------------------------|
E|---2--------------------------|---4-------------------------|

E|-----9-7-5---5---------------|---------0-----0----------0----0--|
B|-----------9---9-7-6-7-------|-------4---------4-----4----------|
G|-6---------------------9-8-6-|-8---4-------4-------4-------4----|
D|-----------------------------|----------------------------------|
A|---0-------------------------|---2-------4-------2-------4------|
E|-----------------------------|----------------------------------|

E|-------------0---2---1---2---4-|---5---4---2---0-----------------|
B|-4---2---4-2---4---3---4---5---|-7---5---4---2-----4---2---0-----|
G|---3---4-----------------------|-----------------4---2---1-----2-|
D|-------------------------------|-----------------------------4---|
A|-2-----------------------------|---------------------------------|
E|-------------------------------|---------------------------------|

E|-------------0------12---|-----------0----9-12-17---|
B|-----------0---9-12------|---------2---10-----------|
G|---------1---------------|-------2------------------|
D|-------2-----------------|-----2--------------------|
A|-----2-------------------|-0-4--------------------0-|
E|-0-4-------------------4-|--------------------------|

E|-0---3---0---------------------|---------------0-----0-4-----4-|
B|-2-5---2-----2-----------------|-------0-----0-----0-------5---|
G|-0---------3-----3---0---------|-----1-----1-----1-------4-----|
D|---------------5---2-----2---2-|---2-----2---------------------|
A|-1---------------------4---1---|-2-----------------------------|
E|-------------------------------|-------------------------------|

E|-7--11-12-----2--|-0---------0-2-|-4--2--5--4--|-2--0-------|
B|--------------0--|-0---0-2-4-----|-5--4--2--0--|-2--0-4-2-0-|
G|--------------2--|-1-------------|-------------|-3--2-------|
D|-----------------|---------------|-------------|------------|
A|-----------2-----|---------------|-------------|------------|
E|-----------------|-0-------------|-------------|------------|

E|------------2---------2-4-5-2-|-0-----------2-|-4-5-6-7-0-2-2-4-|
B|-0--4-2-5-4---5-2-4-5---------|---4-0-2-4-5---|-5---4---2---0---|
G|-1--------------2-------------|-1-------------|-----------------|
D|------------------------------|---4-----------|-----------------|
A|----------------0-------------|-2-------------|-----------------|
E|-0----------------------------|---------------|-----------------|

E|----0---2-0-----|-----------0-4-7----|-0-4-2-0---------5-4-2-------|
B|-2--2-------4-2-|-0-2-0---0--------4-|---------4-2-0---------5-4-2-|
G|-2--0-----------|-1-----3----------2-|-1-------------2-------------|
D|----------------|--------------------|-----------------------------|
A|----1-----------|-2----------------2-|-----------------------------|
E|----------------|--------------------|-0-------------2-------------|

E|---7-5-4---------2-----|-0-4-2-0---------5-4-2-------|---7-5-4---------2-----|
B|---------7-5-4---2---4-|---------4-2-0---------5-4-2-|---------7-5-4---2---4-|
G|-4---------------2---2-|-1-------------2-------------|-4---------------2---2-|
D|-----------------------|-----------------------------|-----------------------|
A|---------------0---2---|-----------------------------|---------------0---2---|
E|-4---------------------|-0-------------2-------------|-4---------------------|

E|---7-5-4-----------------------|----------|----0--0--2-|
B|-5-------7-5-4-----------------|----4---4-|-5--2--0--0-|
G|---------------6-4-------------|----2---2-|-6--0--1--2-|
D|-6-----------------7-6-4-------|----4---4-|-6----------|
A|-------------------------7-6-4-|-2--2---3-|-4--1--2--2-|
E|-0-----------------------------|----------|------------|

E|-0-4-2-0-----------------------|----1----1---|-0--0--0--2-|
B|-0-------4-2-0-----------------|----3----3---|-1--2--0--0-|
G|-1-------------2-1-------------|----0----0---|-0--0--1--2-|
D|-------------------4-2-1-------|-------------|------------|
A|-------------------------4-2-0-|-------0-2---|-3--1--2--2-|
E|-0-----------------------------|-4--3------3-|------------|

E|-0-------0-2-0---0-2-4-|-5-------------------|---------4-7-5-4-5-7-|
B|-0-------3-----4-------|-2-------4-7-5-4-5-7-|-5-------6-----------|
G|-1-------4-------------|-2-------5-----------|-4-------7-----------|
D|-----------------------|---------7-----------|-6-------------------|
A|-----------------------|---------------------|---------------------|
E|-0-0-0-0-0-------------|-0-0-0-0-0-----------|-0-0-0-0-0-----------|

E|-5-9-7-5---------------|---5-4-----------------|---5-4-----------------|
B|-5-------9-7-5-----4---|-5-----7-5-4-------4---|-5-----7-5-4-------0---|
G|-6-------------8---5---|-4-----------6-4---5---|-4-----------6-4---2---|
D|-------------------7---|-6-----------------7---|-6-----------------1---|
A|-----------------------|-----------------------|-----------------2---2-|
E|-0---------------0-0-0-|-0---------------0-0-0-|-0---------------------|

E|-0-5-4-2-0-------------|-------------------------|
B|-0---------4-2-0---0---|-0-----------------------|
G|-1-----------------2---|-1---------------------4-|
D|-------------------1---|-2-----2---6---2---6-----|
A|-----------------2---2-|---------------------2---|
E|-0---------------------|-0---0---4---0---4-------|

E|-------------------4-------4---7-|-12---0---0----||
B|---5-----------5-------5---------|------0---0----||
G|-----------4-----1-------1---4---|-9----1---1---*|| Repete desde o início
D|-2-----6-----2-------2-----------|------2---2---*|| (Repeat from the start)
A|---------2-----------------------|------2---2----||
E|-----4---------------------------|------0---0----||

E|--------------|------0-0-|-1-------------|-------|-0--0-4-4-7-7-|
B|--------------|-5--------|-----------1-1-|-0-----|--------------|
G|----------4-4-|----------|----1-1-2--2-2-|-1-----|------1---4---|
D|-2--2-6-6-----|-2--------|----0------1---|-2-----|-2--2---------|
A|----------2---|----------|--------3------|-------|--------------|
E|-0----4-------|----------|---------------|-------|-0----0---0---|

E|-12---4-4-|-5--7-7-8------|----------------|-----------------|
B|------6---|-5--5---5--4-4-|-5----------4-4-|-5-----------4-4-|
G|-9----7---|-5---------5---|-4----------5---|-4-----------5---|
D|----------|----6---7--7---|-6----------7---|-6-----------7---|
A|----------|---------------|----------------|-----------------|
E|-0--------|---------------|----0--0-0------|-----0--0-0------|

E|-0--0-0-0--0-0-|-0--0-0-0--0-0-|-1--1-1-1--1--|-1---------|------------------|
B|-0-------------|---------------|-1--1---1--1--|-3---------|-----5-5-10--7--7-|
G|-1-------------|---------------|-2--2---2--1--|-0-----2-4-|-5-----------8----|
D|----2---2--2---|-2--2---2--2---|-4--2---0-----|-----5-----|-----2---7---10---|
A|---------------|---------------|-----------3--|-2-----0-2-|-3----------------|
E|---------------|---------------|--------------|-----3-----|------------------|

E|---------7-10------|--------3--0-0-|----------5-8--0-0-|-5-------------|
B|-8-----8-----------|----3-3----2---|-6------6------1---|----3-3-3--1---|
G|-7---7---------0-0-|-3------0--4---|-5----5--------0---|-5--5---5--2---|
D|-9-9---------------|----0----------|-7--7--------------|-3--4---0--0---|
A|-------------------|-1-------------|-------------------|---------------|
E|---------------3---|---------------|-------------------|-----------2---|

E|---------------------------------|---------------------------------|
B|-0-------0---1---3---5---6---3---|-5-------1---3---5---6---8---5---|
G|---0---0---0---0---0---0---0---0-|---0---0---0---0---0---0---0---0-|
D|-----4---------------------------|-----4---------------------------|
A|-------------0---2---3---5---2---|-3-----------2---3---5---7---3---|
E|-3-------------------------------|---------------------------------|

E|---------------------------------|---------------------------------|
B|-3-------0---1---3---5---6---3---|-5-------1---3---5---6---8---5---|
G|---0---0---0---0---0---0---0---0-|---0---0---0---0---0---0---0---0-|
D|-----4---------------------------|-----4---------------------------|
A|-2-----------0---2---3---5---2---|-3-----------2---3---5---7---3---|
E|---------------------------------|---------------------------------|

E|--------------------------------|------3---5---7---8---10---12---14-|
B|-3------------------------------|-----------------------------------|
G|---------2---4---5---7---9---11-|-12-0---2---4---5---7----9---11----|
D|-----5--------------------------|-----------------------------------|
A|-2-----0---2---3---5---7---9----|-10--------------------------------|
E|---3----------------------------|-----------------------------------|

E|-15---4-4--4-|-3---------|---------------|-------5-|-3---1---0--------|
B|------0-0--0-|-0---------|-----2-3-5-6-3-|-0-----3-|-1---3---1----3---|
G|-12---0-0--0-|-0---1-2-0-|---------------|-0-----4-|-0---2---0----4---|
D|--------0----|-----------|-3---2-0-----3-|-------3-|-2---3--------5---|
A|-----------2-|-----------|---------4-5---|---------|------------------|
E|-------------|-3---------|---------------|---------|--------------3---|

E|---------0-------|-3-----------1-0---0-|-----------------|-----------------|
B|-1---------------|-----------------3---|-1---1---0---1---|-----2---3-------|
G|---0---0---0---0-|---0---0---0-----0---|---0---0---0---0-|---0---0---0---0-|
D|-----2-------2---|-----2-------2-------|-----2---0-------|-------------4---|
A|-3-------3-------|-3-------3-----------|-3-----------3---|-1-------2-------|
E|-----------------|---------------------|-----------------|-----------------|

E|-------------------|----------0-----0-|-------7-10--------2-3-5-|
B|-------3---1---3---|------4-------1---|-----8---------3-5-------|
G|-4-2-0---0---0---0-|----0---0---0-----|---7---------------------|
D|-------3---2-------|------------------|-0-----------0-----------|
A|---------------2---|-2--------3-------|-------------------------|
E|-------------------|------------------|-------------------------|

E|-5-3-2-0-------------------|-1-----------------|-0-----------------|
B|-0-------3-1-0-------------|-----3-------------|-----1-------------|
G|-0-------------2-0-0-4-2-0-|---0---0---0-4-2-0-|---0---0---0-4-2-0-|
D|---------------------------|-------------------|-----2-------------|
A|---------------------------|-----2-------------|-3-------3---------|
E|-3-------------------------|-3-------3---------|-------------------|

E|-------0-------3---5-4-7-5-----|---------------------|---0-------------|
B|---3-2---3-6-5---6---------6---|-1-----3-1-0---------|-----3-1-1-0-----|
G|-2---------------------------7-|---0---0-----0-4-2-0-|-0-----------2-0-|
D|-------------------------------|-----2---------------|---------0-------|
A|-------------------------------|---------------------|-3---------------|
E|-1-----------------------------|-3---------3---------|-----------------|

E|---3-1-0-0---1---|-----------------|---------0---------|---0-------------|
B|-----------3---3-|-3---1-------3---|-4-----------------|-----3-----6-5-3-|
G|-0-------2-------|---0---0---0---0-|---0---0---0-4-2-0-|-0-----5-4-------|
D|-2-------3-------|-----2-----------|-------------------|-2-------3-------|
A|-----------------|---------2-------|-----2---3---------|-3-------5-------|
E|-----------------|-3---------------|-------------------|-----------------|

E|---3-1-0---5-1---|-----------------|----0----3-1-0---|-------------|
B|-2-------3-----3-|-3---1-------0---|-1--0----------3-|-2--3--0--1--|
G|-3-------2-------|---0---0---0---0-|-----------------|-3--2--1--0--|
D|-2-------3-------|-----2-------2---|-----------------|-5--4--3--2--|
A|-----------------|-----------------|-0---------------|-------------|
E|-----------------|-3-------3-------|----4------------|-------------|

E|-----------0-1-----------|----6---5-3-|-2--3--1--0-|---4-5-0-1-------------|
B|-------1-3-----3---1---0-|-1--5-------|-4--3--0--1-|-3-----------3---1---1-|
G|---2-4-------------------|-0--6-------|-5--4--1--2-|-2---------2-----0---0-|
D|-------------------2---0-|-2--5-------|------------|-3---------------2---2-|
A|-----------------3---3---|-3----------|------------|-----------------------|
E|-1-----------------------|------------|------------|-1-------------3---3---|

E|------------0-----------1|-----------0--------8---12|--8---------------------|
B|-------1------------1----|-------1--------8-----8---|8-----8--------1--------|
G|---0-----0------2-----2--|---0-----0--------9-------|----9------9-0-----0----|
D|-----2------------3------|-----2-------10-----------|--------10-------2-----2|
A|-3------------3----------|-3------------------------|---------------------3--|
E|-------------------------|--------------------------|------------------------|

E|-------------------------|-------------------3---7-|---3---------------------|
B|-----------0-----------1-|-----------0---3-----3---|-3-----3-----------------|
G|-------0-----------0-----|-------0---------4-------|-----4-----4---0---------|
D|---0-----0-----2-----2---|---0-----0---5-----------|---------5---0-----0-----|
A|-----2-----------3-------|-----2-------------------|-----------------2-----2-|
E|-3-----------3-----------|-3-----------------------|---------------------3---|

E|-----------0-----------0-|-----------0---5---9----12|-----------1-----------2|
B|-------1-----------2-----|-------2---------5---10---|-------3-----------4----|
G|---0-----0-----0-----0---|---2-----2---5------------|---2-----2-----2-----2--|
D|-----2-----------2-------|-----2--------------------|-0---3-0---------4------|
A|-3-----------1-----------|-0------------------------|-------------3----------|
E|-------------------------|--------------------------|------------------------|

E|-----------2-------7---11-|-----------0-----------0|-----------0------------|
B|-------4-------7-----7----|-------0-----------3----|-------1-----------4---7|
G|---2-----2-------8--------|---1-----1-----4-----4--|---2-----2-----5-----5--|
D|-----4-------9------------|-----2-----------2------|-----2-----------7------|
A|-2------------------------|------------------------|------------------------|
E|--------------------------|-0-----------0----------|-0-----------0----------|

E|-----------0-----------0-|-----------0-------------|-----------0-----------4-|
B|-------0-----------3-----|-------1-----------4---7-|-------0-----------5-----|
G|---1-----1-----4-----4---|---2-----2-----5-----5---|---1-----1-----4-----4---|
D|-----2-----------2-------|-----2-----------7-------|-----2-----------6-------|
A|-------------------------|-------------------------|-------------------------|
E|-0-----------0-----------|-0-----------0-----------|-0-----------0-----------|

E|-------4---7------------12-|------------12------------12-|----0--0--0---|
B|---5-----5-----9---12-9----|---9---12-9------9---12-9----|--------------|
G|-----4-----------9---------|-----9-------------9---------|--------------|
D|---------------------------|-----------------------------|----2--2--2---|
A|---------------------------|-----------------------------|--------------|
E|-0-----------0-------------|-0-------------0-------------|-0------------|

E|---------|-4---5--2--|-0-------||-----------------|-----------------|
B|-6---7---|-3---2--1--|-2-------||-----------------|-2-------3---4---|
G|-4-------|-4---2--2--|-2---0---||-----------------|-2-------4---5---|
D|-----7---|-3---4--1--|-2---0---||-----------------|-----------------|
A|-4---5---|-----------|-----2---||-0-0-0-0-0-0-0-0-|-0-0-0-0-0-0-0-0-|
E|---------|-----------|-----0---||-----------------|-----------------|

E|-0-----------1---|-2---5-------4-2-|-2-------0-0-0-0-|
B|-1-----------2---|-3---7-------5-3-|-3-------2-------|
G|-----------------|-----------------|-----------------|
D|-------------3---|-4---7-------5-4-|-4-------2-------|
A|-0-0-0-0-0-0-0-0-|-0-0-0-0-0-0-0-0-|-0-0-0-0-0-------|
E|-----------------|-----------------|-----------------|

E|-0-2-0---0-2-4-5-7-0-0-0-|-----------5-7-9-9-9-9-|-9-7-9-7-----9-7-9-7-----|
B|-3-----4-----------------|-5---5-7-9-------------|---------9-9---------7-7-|
G|-4-----------------------|-6-8-------------------|---------9-9---------8-8-|
D|-------------------------|-7---------------------|-------------------------|
A|-------------------------|-0---------------------|-------------------------|
E|-4-----------------------|-----------------------|---------7-7---------7-7-|

E|-0-----0---0---0---0---0-|---0---0---0---0---0---0---0---0-|
B|-------------------------|---------------------------------|
G|-------------------------|-1---2---3---4---5---6---7---8---|
D|-----1---2---3---4---5---|-2---4---5---6---7---8---9---10--|
A|-------------------------|---------------------------------|
E|-0-----------------------|---------------------------------|

E|-9-------10---11---|-12-----------13---|-14---14-------12-11-|
B|-------------------|-------------------|---------------------|
G|-6-------7----8----|-9------------10---|-11---11-------9--8--|
D|-7-------9----10---|-11-----------12---|-12---12-------11-10-|
A|-0-0-0-0-0--0-0--0-|-0--0-0-0-0-0-0--0-|-0--0-0--0-0-0-0--0--|
E|-------------------|-------------------|---------------------|

E|-11-------12-0-0-0-|-0-2-0-------7-10-0-0-0-|-0-2-0---0----9-12-5-5-5-|
B|-------------------|-3---------9------------|-2-----4---10------2-3-5-|
G|-8--------9--------|-4-----8-9--------------|-2-----------------2-4-6-|
D|-10-------11-------|------------------------|-------------------------|
A|-0--0-0-0-0--------|------------------------|-0-----------------0-0-0-|
E|-------------------|-4----------------------|-------------------------|

E|-------10----12-10---------5---4-|-5-------------0-------------|
B|----10----14----------12---5---3-|-2---2---3---4-5---2---3---4-|
G|-11----------------11------6---4-|-2-2---4---5---6-2---4---5---|
D|-12------------------------------|-----------------------------|
A|---------------------------------|-0-------------0-------------|
E|-10----------------------0---0---|-----------------------------|

E|-0-------------0-12-11-10-9-------|---10-7-------------10-7---------|
B|-5---2---3---4-5------------12-10-|-9------9-------7--------9-------|
G|-6-2---4---5---6------------------|----------9-8-9---9--------9-8-9-|
D|----------------------------------|---------------------------------|
A|-0-------------0------------------|---------------------------------|
E|----------------------------------|-0-------------------------------|

E|-----10-7-------------------------|---------------0-------------|
B|-7--------9-------7---------------|-----2---3---4-5---2---3---4-|
G|---9--------9-8-9---9-7-----------|---2---4---5---6-2---4---5---|
D|------------------------9-6-------|-----------------------------|
A|----------------------------7-5---|-0-------------0-------------|
E|-0----------------0-------------7-|-----------------------------|

E|-0-------------0-12-11-10-9-------|---10-7-------------10-7---------|
B|-5---2---3---4-5------------12-10-|-9------9-------7--------9-------|
G|-6-2---4---5---6------------------|----------9-8-9---9--------9-8-9-|
D|----------------------------------|---------------------------------|
A|-0-------------0------------------|---------------------------------|
E|----------------------------------|-0-------------------------------|

E|-----10-7-------------------------|-------5-9-7-5-4-5-4-------------|
B|-7--------9-------7---------------|-----5---------------7-5-7-5-----|
G|---9--------9-8-9---9-7-----------|---6-------------------------7-6-|
D|------------------------9-6-------|---------------------------------|
A|----------------------------7-5---|-0-------------------------------|
E|-0----------------0-------------7-|---------------------------------|

E|-----10-9-7----7----------------|-----12-10-9----9--------------------|
B|------------10---10-9-7-9-7-----|-------------12---12-10-9-10-9-------|
G|-7--------------------------9-8-|-9-----------------------------11-10-|
D|--------------------------------|-------------------------------------|
A|--------------------------------|---0---------------------------------|
E|---7----------------------------|-------------------------------------|

E|-------14-12-10----10----------------------|-4-----4-5-----5-4-----4-5-----5-|
B|----------------14----14-12-11-12----------|---------------------------------|
G|-11-------------------------------14-13-11-|-----4-------4-------4-------4---|
D|-------------------------------------------|---2-------3-------2-------3-----|
A|-------------------------------------------|---------------------------------|
E|----10-------------------------------------|---------------------------------|

E|-4---2---4---5---7---6---7----9-|----10----9---7---5---4---2---0-----|
B|---4---5---7---9---8---9---10---|-12----10---9---7---5---3---2-----3-|
G|--------------------------------|--------------------------------4---|
D|-2------------------------------|------------------------------------|
A|--------------------------------|------------------------------------|
E|--------------------------------|------------------------------------|

E|-------------0----9-12---|---------2----10-14-----2-|
B|-2---------2---10--------|-------3---10-----------1-|
G|-2-------2---------------|-----2------------------2-|
D|-------2-----------------|---4----------------0-1---|
A|---0-4-----------------4-|-5------------------------|
E|-------------------------|--------------------------|

E|-0-9-12----9----------------------------|-------------------9-12-17-|
B|-2------10-----10-----------------------|----------------10---------|
G|-2-----------9-------9------------------|--------------9------------|
D|------------------11------11------------|-----------11--------------|
A|-----------------------12-------12------|--------12-----------------|
E|-0---------------------------12----9-12-|-5-9-12--------------------|

E|----9------4--|-5-------------|-------------|-2------------------|
B|----10-----3--|-2-----------0-|-2--0--3--2--|-1---0--2-0---0-2-3-|
G|----9------4--|-2-------1-2---|-2--1--------|-2---1------3-------|
D|--------------|-----2-4-------|-------4--2--|-1---0--------------|
A|--------------|-0-------------|-------------|--------------------|
E|-0------0-----|---------------|-------------|--------------------|

E|-0-4-2-5-4-7-5-----4-----------|-----------4-5-7-|-9--10-11-12-5-7-8-9-|
B|---------------6-7---7-5-3-2-0-|-------5-7-------|-10----9-----7---5---|
G|-2-----------------------------|-2--1------------|---------------------|
D|---------------0---------------|-----------------|---------------------|
A|-4-----------------------------|-4--2------------|---------------------|
E|-------------------------------|-0---------------|---------------------|

E|----5---7-5-4---|-----------5-9-12--4--|-5-9-7------------10-9-7--------|
B|-7--4---------7-|-5-7-5---5---------3--|-2-----10-9-7------------10-9-7-|
G|-7--5-----------|-6-----8-----------4--|-2------------9-7---------------|
D|----4-----------|-7--------------------|--------------------------------|
A|----------------|----------------------|-0------------------------------|
E|----------------|-0-----------------0--|----------------7---------------|

E|---12-10-9-----------2---4-|-5-9-7------------10-9-7--------|
B|-----------12-10-9---3---3-|-2-----10-9-7------------10-9-7-|
G|-9-------------------------|-2------------9-7---------------|
D|-------------------0-------|--------------------------------|
A|---------------------------|-0------------------------------|
E|-9---------------------0---|----------------7---------------|

E|---12-10-9-----------2---4-|-5-12-10-9------------------------------|
B|-----------12-10-9---3---3-|-2---------12-10-9----------------------|
G|-9-------------------------|-2-----------------11-9-----------------|
D|-------------------0-------|------------------------12-11-9---------|
A|---------------------------|-0------------------------------12-11-9-|
E|-9---------------------0---|----------------------------------------|

E|----4---4--|-5--2--0--0--|-5-9-7-5-----------------------|----3-----3----|
B|----3---3--|-2--1--2--0--|-2-------9-7-5-----------------|----1-----1----|
G|----4---4--|-2--2--2--2--|-2-------------7-6-------------|----3-----3----|
D|-2--3---3--|-4--1--2-----|-------------------9-7-6-------|--------0-2----|
A|-----------|-------------|-0-----------------------9-7-5-|-4--3--------3-|
E|-----------|----------4--|-------------------------------|---------------|

E|-1--2--0--0-|-----------------|-----------------|-----------------|
B|-1--1--2--0-|---------2---3-5-|-3---------------|---------5---3-2-|
G|-2--2--2--1-|-2-------0-------|---------1---2-4-|-2-------0-------|
D|-3--1--2----|-2---------------|-4-------0-------|-----------------|
A|------------|-4-------0-0-0-0-|-0-0-0-0-0-0-0-0-|-4-------0-0-0-0-|
E|----------0-|-5-5-5-5---------|-----------------|-5-5-5-5---------|

E|-5-------7--------|-5---9---7--------|-5---9---7--------|-5---9---7--------|
B|-3-------6---10-9-|-5-------6---10-9-|-5-------6---10-9-|-5-------6---10-9-|
G|---------7--------|-6-------7--------|-6-------7--------|-6-------7--------|
D|-4----------------|------------------|------------------|------------------|
A|-0-0-0-0-0-0-0--0-|-0-0-0-0-0-0-0--0-|-0-0-0-0-0-0-0--0-|-0-0-0-0-0-0-0--0-|
E|------------------|------------------|------------------|------------------|

E|-7-----7---|-5--------2-------5-------8-|----9------4--|----------|
B|-6-----6---|-7------1-------4-------7---|----10-----5--|----------|
G|-7-----7---|-8----2-------5-------8-----|----9------4--|----------|
D|-6-----6---|-7--1-------4-------7-------|--------------|-----2-2--|
A|-----------|----------------------------|--------------|----------|
E|-----------|----------------------------|-0------0-----|-----0----|

E|--------0--1-1-|-2-4-5-2-------|------------------------|-----------------|
B|----2-2--------|------------4--|-5-7-5---5-7-8-5----2-2-|-3-----6---7---5-|
G|-2-------------|---------6--2--|-------8---------4--0---|-----6---7---6---|
D|--------2--3---|-4-------------|-6----------------------|-4---------------|
A|-0--2----------|------------2--|--------------------0---|-5---------------|
E|---------------|---------------|-0----------------------|-----------------|

E|---------------------------------|-------0-5-----12--|---------10-14----4--|
B|---3---2---0---------------------|-----2-------------|------10----------3--|
G|-4---2---1-----2---1-------------|---1-----------12--|---11-------------4--|
D|-------------4---2-----4---2---0-|---------------11--|-0-------------------|
A|---------------------5---4---2---|-0-------------0---|---------------------|
E|---------------------------------|------------9------|------------------0--|

E|-5----||
B|-2----||
G|-2----||
D|-2----||
A|-0----||
E|------||

Sources